Recent

% | $
Quotes you view appear here for quick access.

ModusLink Global Solutions, Inc. Message Board

  • kds5862 kds5862 Mar 2, 2005 9:31 PM Flag

    MM manipulation of cmgi, shameless...

    I can't wait until we break out of this trading pattern put on by the MM's.

    SortNewest  |  Oldest  |  Most Replied Expand all replies
    • Now you know - you're a cute
      little heart-breaker


      F#7(#9)
      ----5-x-----5-x-----5-5--------|----5-x-----5-x-----5-5---------|
      ----5-x-----5-x-----5-5--------|----5-x-----5-x-----5-5---------|
      -------------------------------|---------------------------2h4p2|
      --------4-4--------------------|--------4-4---------------------|
      --------------------------2----|--------------------------2-----|
      2-2-------------2-2-----5-----5|2-2-------------2-2-----5-------|

      Fo-xy And you know, you're a sweet little
      love-maker


      F#7(#9) B
      ----5-x-----5-x-----5-5--------------|
      ----5-x-----5-x-----5-5-------4-4-x-x|
      ------------------------------4-4-x-x|
      --------4-4-------------4-----4-4-x-x|
      --------------------------0-2-2-2-x-x|
      2-2-------------2-2------------------|

      Fo-xy



      F# E F# E
      2---2---x-x-x-2-2|0-------------------|2---2---x-x-x-2-2|0------------------|
      2---2---x-x-x-2-2|0-------------------|2---2---x-x-x-2-2|0------------------|
      3---3---x-x-x-3-3|1--------2/7-7-9-7--|3---3---x-x-x-3-3|1--------3bu4-2-3--|
      4---4---x-x-x-4-4|2--------2/7-------9|4---4---x-x-x-4-4|2-----------------4|
      4---4---x-x-x-4-4|2-------------------|4---4---x-x-x-4-4|2------------------|
      2---2---x-x-x-2-2|0-------------------|2---2---x-x-x-2-2|0------------------|
      Thumb

      I wana take you Home I won't do you no Harm



      F# E F# - strike chord and then cut off sharply
      2---2---x-x-x-2-2|0---0------------|2-------|
      2---2---x-x-x-2-2|0---0------------|2-------|
      3---3---x-x-x-3-3|1---1------------|3-------|
      4---4---x-x-x-4-4|2---2-----0-2-0--|4-------|
      4---4---x-x-x-4-4|2---2-0h2-------2|4-------|
      2---2---x-x-x-2-2|0---0------------|2-------|
      Thumb

      You got to be all Mine Oooh! foxy lady!


      The second verse is played much the same as the first, but with different
      embilishments is the chords - Hendrix seemed able to invent them on the spot.


      The lead in to the solo goes like:


      ---------------------17bu19-etc-----------
      /14----/14 /14----------------------------
      ----14---------14-------------------------
      ------------------16----------------------
      ------------------------------------------
      ------------------------------------------

    • Take a Walk of the Wild Side

      C F6
      Holly came from Miami, FLA
      C F6
      Hitchhiked her way across the USA
      C D
      Plucked her eyebrows on the way
      F D
      Shaved her legs and then he was a she
      She says

      C F6
      Hey babe, take a walk on the wild side
      C F6
      Said hey honey, take a walk on the wild side

      Verse 2:

      Candy came from out on the island
      In the backroom she was everybody's darling
      But she never lost her head
      Even when she was giving head
      She says

      Hey babe, take a walk on the wild side
      Said hey, babe, take a walk on the wild side
      And the colored girls go
      C F6 [L.R. 2X; colored girls 2X]
      Do do-do do-do do-do-do-do Do do-do do-do do-do-do-do
      Dooo...

      Verse 3:

      Little Joe never once gave it away
      Everybody had to pay and pay
      A hustle here and a hustle there
      New York City is the place where
      They say

      Hey babe, take a walk on the wild side
      Said hey Joe, take a walk on the wild side

      Verse 4:

      Sugar Plum Fairy came and hit the streets
      Looking for soul food and a place to eat
      Went to the Apollo, you should have seen him go, go go
      They said

      Hey Sugar, take a walk on the wild side
      I said hey babe, take a walk on the wild side
      All right... huh

      Verse 5:

      Jackie is just speeding away
      Thought she was James Dean for a day
      Then I guess she had to crash
      Valium would have helped that fast
      She said

      Hey babe, take a walk on the wild side
      I said hey honey, take a walk on the wild side
      And the colored girls say
      C F6 [L.R. 2X; colored girls 4X]
      Do do-do do-do do-do-do-do Do do-do do-do do-do-do-do
      Dooo...

    • At the moment she's a "foxy lady" the titanic sound is not a r&r or pop of the 60. We are for the best music

    • Reminds me of the singing on the deck of the Titanic, right before it went down. I hope not.

      Jack

    • "WITH A LITTLE HELP FROM MY FRIENDS" THE MM

    • Very good! I like that, seems very appropiate.

    • If we don't move soon, I'm gonna feel like "Real Nowhere Man, Livin in my Nowhere Land, Talkin Bout my Nowhere Plans with Nobody."

    • WAll Street/ Yahoo boards:

      'A hustles here a hustle there'... 'Everywhere...'

      rashred

    • Actually, 'if you try sometimes, you do 'get what you need. Here's hoping...

      rashred

    • It's better if we'll sing "all togheter now"
      "here's comes the sun" may be monday

    • View More Messages
 
MLNK
1.37+0.07(+5.38%)Aug 29 4:00 PMEDT